A Song For Me

“DROWNED IN WINE”

Intro:
(arpeggios - played with capo on 2nd fret)
Bm  -  Bm/A  -  Bm/G#  -  Bm/G(nat)
Bm  -  Bm/A  -  Bm/G#  -  G(nat)
G  -  F#  -  G  -  A  -  C  -  D  -  E  -  F#

Verses:
Bm  -  Bm7  -  D  -  A  -  G
G  -  A  -  C  -  D
Bm  -  Bm7  -  D  -  A  -  G
G  -  F#  -  G  -  A

B  -  E
F#  -  E  -  D  -  C#
Bm  -  Bm/A  -  Bm/G#  -  Bm/G(nat)
Bm

Flute solo:
Bm  -  Bm/A  -  Bm/G#  -  Bm/G(nat)
Bm  -  A  -  G  -  F#
Bm  -  A  -  G  -  F#

Bridge:
E  -  G  -  D  -  A
Bm  -  Bm/A  -  Bm/G#  -  Bm/G(nat)

“SOME POOR SOUL”

Intro:
Gmaj7  -  Fmaj7  -  Gmaj7  -  Fmaj7  

Verses:
Gmaj7  -  Fmaj7  -  G  -  E

E:---------12h-------------------------------------------------------------
B:---12h-------------------------------------------------------------------

Am  -  Am7  

E1:---3^0------------------------------------------------------------------

F#7  -  B#m7  -  D (single note)  -  B#m7  -  A (single note)  -  B#m7 

Bridge 1:
twin guitars riff, and then...

(harmonics on one of the two guitars)
E:-------------------------------7h-----------------12h--------------------
B:---------------12h--------------------------12h--------------------------
G:---------12h---------7h---5h---------------------------------------------
D:---12h-------------------------------------------------------------------
A:---------------------------------------7h--------------------------------

Bridge 2 with flute:
D  -  C  -  A#  -  Dm
Gm7  -  D#  -  F  -  D#
Dm7  -  C  -  Fmaj7  -  D

“LOVE IS A SLEEPER”

A  -  G  -  A  -  G
Dm7  -  A  -  Dm7  -  G  -  A

Vibes solo:
E

End Jam:
A

“STOP FOR THE TRAFFIC – THROUGH THE HEART OF ME”

played with capo on 3rd fret

Intro:
G:---0-------0-------8-------6-------------------------------------------------------
D:---13------11------10------8------------------------------------------
Bb:--12------10------10------8------------------------------------------------------------------
F:---14------12------0-------0-------------------------------------------------------------
C:---0-------0-------0-------0----------------------------------------------------------
G:---------------------------------------------------------------------

F  -  C  -  G  -  Bb

Verses:
C  -  G  -  F  -  D
Am  -  Bb  -  F  -  C
G  -  G  -  F  -  A
D  -  D/C  -  D/B  -  D/A  -  G  -  E

Bridge:
A  -  E7  -  Eb7-D7  -  C7  -  B
F#m  -  G  -  D  -  A

“WHEELS”

Intro:
Em  -  D  -  A  -  Em

Verses:
Em  -  F#sus4  -  Am  -  Am/G#  -  Am/G  -  G

Chorus:
C7  -  Cm  -  G  -  G7  -  C7  -  F
Em  -  D  -  A  -  Em

Middle Section:
Em  -  G  -  Em  -  Cmaj7

“SONG FOR SINKING LOVERS”

Intro:
G  -  F#  -  F  -  E

Verses:
E  -  A  -  E

Chorus:
D  -  A  -  D  -  A  -  E

Riff:
D - B - A - G - G - F# - E

“THE CAT AND THE RAT”

D  -  F  -  G  -  D   (x2)
A

Leave a Reply