Anyway

“GOOD NEWS, BAD NEWS”

C - Bm - A - E
D - F - G - A

“WILLOW TREE”

C - F - C - G(7)
A m - F
G - E - A
D - Gm 

Instrumental:
C - Dm - C - Dm
Em - Dm - Em - A

“Holding the Compass”

E:-------------------------------------------------------------------------
B:------------------------------2------------------------------------------
G:---------0----------0---------2------------------------------------------
D:------2----------0------------2----------2-^-0----0----------------------
A:---3----------2----------0----------------------3-------2-^-0----0-------
E:---------------------------------------------------------------3---------

“STRANGE BAND”

Verses:
A  -  G  -  F  -  G  -  A  -  G  -  F
E-F-G-G#  -  G#  -  A#
A#  -  A  -  A-A#-B-C  -  C  -  B
F  -  F-F#-G-A (repeat)
Violin Solo:
Fm  -   C
Dm/Bb  -  Am
F  -  C
Dm/Bb  -  Am
F  -  C
D  -  F  -  G  -  A

“PART OF THE LOAD”

bass intro:

G:-------------------------------------------------------------------------
D:-------5~6-----7-5^6--------5~6-----------5~6-----7-5^6-------5~6--------
A:---7-7-------5----------7-7---------7-7-7-------5---------7-7------------
E:-------------------------------------------------------------------------

Verses:
E
C#  -  D-D#-E-F-F# - E
E
C#  -  D-D#-E-F-F# - G-G#-A-A#-B
Chorus:
B  - E - D - E

“ANYWAY”

Verses:
Am  -  Bm7
Am  -  Bm7  -  B(7)
E  -  Em
A  -  D
Solo after 2nd verse:
Am  -  E  -  Am  - E... A  -  D
End:
Am  -  Em

“NORMANS”

Intro:
Gm - A - Bm
C - Bm - Am - Em
C - Bm - Am - Em
Em - Cm - Eb7 - A
G- Bm
F - C - Eb - G(7)  -  Bm
F - C - Eb - G

Piano Break:
C - G - C -  - Am - Em -
Cm - Dm - Eb - Fm - Gm - Am - G

“LIVES AND LADIES”

 Intro:
G#m  -  C#m
F#  -  B
D  -  C#m  -  B  -  G
G  -  A  -  B...

Verses 1-3:
C#m  -  E
C#m  -  Am  -  Am/B/B
C  -  G  -  Gm  -  B  -  E  -  C#m  -  E

(after 3rd verse) repeat intro

Solo:
C#m  -  E  -  repeat intro

4th Verse:
E  -  A  -  C#m
G#m  -  D
E  -  A  -  C#m
Bb  -  B  -  A

5th Verse:
F#  -  B  -  Bm
Am  -  G5  -  F#5  -  E5  -  A   (2x)  

repeat intro

6th Verse (same as 4th verse)

7th & 8th Verse (same as 5th verse)

Leave a Reply