Entertainment

“WEAVER’S ANSWER”

Intro:

Ab    -   G  -  Eb       -      G
Weaver of life, let me look and see

    C      -      Dm
The pattern of my life gone by

Em       -         Bb 
Shown on your tapestry


Verses:

Cm       -          Bb - Cm
Just for one second,     one glance upon your loom

Ab      -     G      -   Eb     -       G 
Does it of my youth show tears of yesterday

C        -         Dm      -    Em         -        Bb 
Broken hearts within a heart as love first came my way

“OBSERVATIONS FROM A HILL”

(played with capo on 5th fret, strumming with the drum beat

A:---2-----------3-----------2-----------0-----------2----------
E:---3-----------3-----------3-----------3-----------3----------
C:---2-----------2-----------2-----------2-----------2----------
G:---0-----------0-----------0-----------0-----------0----------
D:--------------------------------------------------------------
A:--------------------------------------------------------------

A:---1-----------3-----------1-----------0-----------1----------
E:---3-----------3-----------3-----------3-----------3----------
C:---3-----------3-----------3-----------3-----------3----------
G:---0-----------0-----------0-----------0-----------0----------
D:--------------------------------------------------------------
A:--------------------------------------------------------------

Verses:

G                                -                                F 
Chimney tops, roof tops, higher than tree tops I stood there on a hill

C         -          G 
Buildings jagged and clustered

G      -     C
I remained unflustered

Bb      -      F      -       G
These are observations from a hill

“Hung Up Down”

– opening

E:---2--------0--------------------------0----------------------
B:---3--------3--------3--------2--------0----------------------
G:---2--------2--------2--------2--------1----------------------
D:---0--------0--------2--------2--------2----------------------
A:---------------------0--------0--------2----------------------
E:---------------------------------------0----------------------

Verses:

E        -        D    
What the hell bad eggs don't smell

C               -             E     -  G  -  A
When glossed with sleek perfume

             F#   -   C#
Maybe they're hung up down

E     -   B
Next stop they'll maybe turn around

D      -    D/C#    -  D/B
Every other way, every other way than

D/A  - E         D  -  A  -  E
I want them to be

“How-Hi-the-Li”

E:---5--------4--------3--------2-------------------------------
B:---6--------5--------4--------3-------------------------------
G:---5--------4--------3--------2-------------------------------
D:---0--------0--------0--------0-------------------------------
A:--------------------------------------------------------------
E:--------------------------------------------------------------

F/D            -             E/D 
And we'd like to know if Mr. Cho En Li

     Eb/D         -           D
Gets high with all the tea in China


Chorus:

Bb                 -               Am  
We only wanna break the chain of society

Bb                 -                 Am 
Put the people back on the road to reality

C                  -               F/D 
We only wanna turn the whole world on

Outro:

C  -  D  -  C  -  D

“SECOND GENERATION WOMAN”

Opener: the first bit is repeated picking

E:--------------------------------------------------------------
B:---8--8-------------8---7---5---------------------------------
G:---11^12------------8---7---5---------------------------------
D:--------------------------------7-----------------------------
A:--------------------------------------------------------------
E:--------------------------------------------------------------

Chords:

A
Smokes like a man getting higher than I can

    C 
She looks good to handle from a personal angle

D          -           A 
     Second generation woman

Ending:

A - G - A - G

“FROM PAST ARCHIVES”

Verse:

G    -    Db(dim)  - Am   -  Bm     -    Em
Why can't we         forget, forgive and be returned to harmony

C  -  Gsus4/B  -  Am  -  C  -  Gsus4/B  -  Am
Singing our       song,  duetting as       one

Gb7  -  D   -   C   -   Gsus4/B   -   Am 
It took time as pictures hard to find

Bridge/Solo:

G - E7 - A7 - D7
C -  F -  C
G   -   Bb  - Bb/A - Bb/G - Bb/F
Bb  -  C  -  D 

“DIM”

Verses:

C         -          Ab      -      F        -        C
I can't see you, but you can see me waiting along the road

G            -             F
See you around the corner, waitin' for my flame to burn

C          -       Eb  
My eyes are dim, I cannot see

      F              -          Bb - Bb      -       C
But I know there's a good time           waiting for me

Solo:

E  -  D  -  G  -  Gb  -  E 

End:

E  -  D
C  -  G  -  C

“PROCESSIONS”

Verses:

  C     -    Em  
A small boy, bucket in hand

Bb        -      F 
Building castles in the sand

C        -      Dm      -      Am 
Thinking of his life that lies ahead

Break:

Am

“FACE IN THE CLOUD”

Intro:

Am  -  D  -  F/D  -  G

Verses:

D                 -            Am  
Taking a journey, expecting to try

G                  -            D 
Not certain of things, bound to happen

     F                 -               C 
Just reach out and hold, the hand of a stranger

D            -           Am
Leading the way to eternity

“EMOTIONS”

Verses:

E           -       F# 
Emotions you feel, around you they steal

A             -            E
Saying much more than mere words can


D   -  G       -        Bm
Strange, when lonliness holds you

       Em    -     Bm
Like a cloak that surrounds you

F# 
Contentment to fears, enchantment to tears

Leave a Reply