Fearless

“BETWEEN BLUE AND ME”

Verses:
F - Em - Dm - Bb - Eb - Ab - Dm - Db - Eb - Ebm - Cm
Dm - Em/D - F/D - C/D

Chorus:

Riff - guitar #1:

E:-------------------------------------------------------------------------
B:--------------7---8^10---8------8---6---5--------------------------------
G:---9^11---9---------------------------------5---5^7----------------------
D:-------------------------------------------------------------------------
A:-------------------------------------------------------------------------
E:-------------------------------------------------------------------------

Riff - guitar #2:

E:-------------------------------------------------------------------------
B:----------------10---11^13---11------13^15---13---10~8-------------------
G:---12^14---12--------------------------------------------9^10------------
D:-------------------------------------------------------------------------
A:-------------------------------------------------------------------------
E:-------------------------------------------------------------------------

Chords:
D - D/E - D/Gb - G - F - Em - D  2x with Guitars 2x with Vocal
G - A-Bb - A - F - Em   2x

Solo:
Dm - Em - Dm - Am

“SAT D’Y BARFLY”

Verses:
F - D  (repeat 2x)
F - D - C - Bb - A5 - F - Ab - D

“SPANISH TIDE”

Intro in 6/4 time("stars that are burning" theme)

|Am                       |F                      | 
| 1   2   3   4   5   6   |1   2   3   4   5   6  | 

E-0---0---0---0---0---0----1---1---1---1---1---1----
B-1---1---1---1---1---0----1---1---1---1---1---1----
G---------------------------------------------------
D---------------------------------------------------

E---------------------------------------------------
B-1---0---1---3---1---0----1---0---1---3---2---0----
G---2---2---2---2---2---2----2---2---2---2---2---2--
D-2---2---2---2---2---2----3---3---3---3---3---3----
A---------------------------------------------------
E---------------------------------------------------

|D                        |Em              A       |
| 1   2   3   4   5   6   |1   2   3   4   5   6   |

E------------------------------------------0---0----
B-3---3---3---3---3---3----5---5---5---5---2---3----
G-2---2---2---2---2---2----4---4---4---4-------0----
D---------------------------------------------------

E---------------------------------------------------
B-1---0---1---3---2---0----0---1---3---1---2---3----
G---2---2---2---2---2---2----0---0---0---0---0---0--
D-0---0---0---0---0---0----2---2---2---2---2---2----
A---------------------------------------------------
E---------------------------------------------------

| A       D   G   C   Em
| 1   2   3   4   5   6   |

E-0---0---2---3---8---7---
B-5---8---3---3---8---8---
G---------2---4---9---7---
D-------------------------

E-0---3-------------------
B---------3---3---5---5---
G---0---0-2---4---5---4---
D-2---2---0---5---5---5---
A-------------------------
E-------------------------

6/4
|Am                         |F
Slowly watch the tide turn. Far too late when we learn
|D                              |Em 234 A 6|A 2 D G C Em|
   there are only stars that are burning.

4/4
|Am             /G|F            /E|D/F#          D|
 Then, quietly the room folds into two as mirror and
|E7     climb   |
 window hold the  
|Am                /G|F              /E|D/F#          D|
  view, bright on all sides, holding the eye. Leaving, you
|E7       climb   |Am              |F               |
                   /A  /C/B/A/G/A  /F /D/C/B/A/B /G#   (sketch)
 stand on Spanish tide.  
|E                   |             
    /A /Ab /A  /D/Db  /G/Gb /C/Cb /G/Gb 


Syncopated rhythm
|Am    Am    Am    A#m G#m|Am    Am    Am    Am# G#m|    twice
 1 and 2 and 3 and 4 and  |1 and 2 and 3 and  4 and

4/4
|Cm(fret 8) C#   |C#        F#(9) |Bbm  Ebm(6)  |Bbm         |
 Here it begins,  leading me on ---



|Bb    Bb    Bb    B     |Bb    Bb    Bb    B |
 1 and 2 and 3 and 4 and |1 and 2 and 3 and 4 and
|Bdim  Bdim  Bdim  Cdim   Bdim  Bdim Cdim   Bdim    | 
 1 and 2 and 3 and 4 and |1 and 2 and 3 and 4 and


4/4
|Am     | Am      |

|Am           |Em            |Gm             |Dm            |
 Destiny will show soon    as arrows start to fly.        The
|Bbm             |Fm                    |Gm           |A7        |
 brightest ring a-round the moon   will darken as you cry.

|Dm         |Am         |Cm              |Gm              |
 Services de-manded for who puts claim to some.         A
|Ebm             |Bbm             |Gm           |A7       |
 million stars to ask for    Could only think of one

    |Bb dim5  | A     |  Bb dim5 | A      |  (Spanish rhythm phrase)    
e|-------0---------0---------------------------|
B|-------3---------2---------------------------|
G|-------3---------2---------------------------|
D|-------2---------2---------------------------|
A|-------0---------0---------------------------|
E|---------------------------------------------|


Poli's solo

|Am    Am    Am    A#m G#m|Am    Am    Am    Am# G#m|    twice
 1 and 2 and 3 and 4 and  |1 and 2 and 3 and  4 and

|Cm    Cm    Cm    C#m Bm|Cm   Cm    Cm    C#m Bm |    twice
 1 and 2 and 3 and  4 and|1 and 2 and 3 and 4 and

|Am    Am    Am    A#m G#m|Am    Am    Am    Am# G#m|    twice
 1 and 2 and 3 and 4 and  |1 and 2 and 3 and  4 and

|Cm    Cm    Cm    C#m Bm|Cm   Cm    Cm    C#m Bm |    twice
 1 and 2 and 3 and  4 and|1 and 2 and 3 and 4 and

|Am    Am    Am    A#m G#m|Am    Am    Am    Am# G#m|    twice
 1 and 2 and 3 and 4 and  |1 and 2 and 3 and  4 and

4/4
|Cm(8)        C#     |C#        F#(9) |Bbm  Ebm(6)  |Bbm         |
 Now it's for real,  taking me down  ----


|Bb    Bb    Bb    B     |Bb    Bb    Bb    B |
 1 and 2 and 3 and 4 and |1 and 2 and 3 and 4 and
|Bdim  Bdim  Bdim  Cdim   Bdim  Bdim Cdim   Bdim    | 
 1 and 2 and 3 and 4 and |1 and 2 and 3 and 4 and


Intro recap 
|Am          |F           |D7          |Em      A   |A    D   G  C Em
|1 2 3 4 5 6 |1 2 3 4 5 6 |1 2 3 4 5 6 |1 2 3 4 5 6 |1  2  3  4  5  6 |

|Am                         |F                           |
Slowly watch the tide turn, circle years. We could learn
|D                              |Em 234 A 6|A 2 D G C Em|Am Asus
   there are only stars that are burning.

“SAVE SOME FOR THEE”

Verses:
A   -   F
C   -   F   -   G - A5 - Bb5 - C5 (you can try major sevenths here too.)
A   -   F
C   -   F   -   G
C   -   G - A5 - Bb5 - C5
Chorus:
D   -   A
Instrumental Break:
D  -  A  -  B  -  F#  -  C  -  G  -  F
Bridge:
D   -   D/C#
D/B   -   D/A
Dm   -   Bass: C B A G
F

“TAKE YOUR PARTNERS”

Intro:
A
D-A  -  A
D-A 

Verses:
E--------------------------------5^3------------------------0----
B-----5--7-----------------5--------^3---5^3----3-----1--------1-
G--7--------7^6-4^6--5--7-----5-------------^4-----3-----2-------
D----------------------------------------------------------------

D  -  A  -  C  -  G  -  Bb  -  F

“CHILDREN”

F - Gm   2x
F - Am - Gm - F
Bb - Gm  -  F
Ab - Bb - F

“BLIND”

(with 6th string tuned to D)

Verses:
D  -  D  -  F-E-Eb-D
E-F-Gb-G  -  G  -  C  -  A  -  E
C  -  A  -  C  -  G

Riff:
D  -  Gb  - A  -  B

“BURNING BRIDGES”

Intro:
E--3---------3---------------5--6--5--------3--------
B-----3-3-3-----3-3-3--4--6-----------6--5-----3-3-3-
G----------------------------------------------------

Verses:
E--6--5--3--6--5--3--6--5--3--3-
B--3--3--3--3--3--3--3--3--3--3-
G--3--3--3--3--3--3--3--3--3--3-

Chorus:
G - Am - Bb - G - Bb - Am - G

Leave a Reply