It’s Only A Movie

“IT’S ONLY A MOVIE”

Intro:
E:-------5-5-5--------------4-4-4--------------5-5-5--------------5-5-5----
B:-------5-5-5--------------5-5-5--------------6-6-6--------------5-5-5----
G:---7--------------7--5-7-------------7--5-7-------------7--5-7-----------
D:-------------------------------------------------------------------------
A:-------------------------------------------------------------------------
A:-------------------------------------------------------------------------

Am - E - Dm - Am - E - Dm - Am  

Notes:
C-B-Bb-B

Verses:
B - C - Am - B - C - Dm
G5 - A5 - Bb5 - C - Dm
A5 - G5 - E5 - F5 - G5
E5 - G#5 - A5 - B5 - Am - E - Dm - Am - E - Dm - Am

Chorus:
F - E - F - E - F - Bbsus - Bb - Am

“LEROY”

Intro:
E - B - A - F#m - E
Verses:
C#m - E
A - Abm - G - E
Chorus:
E - B - A - F#m - E

“Buffet Tea for Two”

E:---7---5---2---3---2--------7---10--5---6---5----------------------------
B:---8---6---3---3---3--------8---11--6---6---6----------------------------
G:---7---5---2---2---2--------7---10--5---5---5------------------------------
D:---0---0---0---0---0--------0---0---0---0---0----------------------------
A:-------------------------------------------------------------------------
E:-------------------------------------------------------------------------
E:---7---5---2---3---2--------0---2------0---2-----------------------------
B:---8---6---3---3---3--------1---3------1---3-----------------------------
G:---7---5---2---2---2--------0---2------0---2-----------------------------
D:---0---0---0---0---0--------2---0------2---0-----------------------------
A:----------------------------3----------3---------------------------------
E:-------------------------------------------------------------------------
Verses:
G  -  F  -  G  -  F  -  G  -  F  -  C  - D

Bridge:
Em  -  D  -  Em  -  D  -  Em  -  D  -  A
Em  -  D  -  Em  -  D  -  Em  -  D  -  A  -  Bm  -  C#m

“BOOM BANG”

Chorus:
D   -   E   -   G
F   -   Am   -   G   -   E
Verses:
A   -   D
F#m   -   E
A

“BOOTS N’ ROOTS”

G - Em
G - Em
G - B - C - A
G - A - C - G
D - B - C - A
G - C - E - A
D - A
C - Bb - G
C - Bb - F

“BANGER”

G  -  C  -  G  -  D
G  -  C  -  G  -  F
C  -  Bb  -  Eb  -  Db
Ab  -  Gb  -  B  -  Db

(Key change)
E  -  A  -  E  -  B
E  -  A  -  E  -  D
A  -  G  -  C -  Bb
F  -  Eb  -  Ab  -  Bb

“CHECK OUT”

Riff:
D  -  C  -  A  -  D  -  C
C  -  Bb  -  G  -  C  -  Bb

Verses:
C  -  D  -  Bb  -  C   (repeat)

Bb  -  Eb  -  A  -  D-Eb-E-F

G------------------------------------------------------
D------------8--7--------------------------------------
A-----7--10--------10--8------------------8------------
E--8----------------------10--11--10--11-----11--10--8-

D  -  D  -  D-Db-C

G----------------------------------------------
D-----------3--2-------------------------------
A-----2--5--------5--3--------------3----------
E--3--------------------5--6--5--6-----6--5--3-

A  -  A  -  A-Bb-B-C
A  -  A  -  C-Db-D-Eb-E-F

Leave a Reply