“THE CHASE”

Intro:
Dbm - C - Dbm - C
Dbm - C - G-Gb-F-E 
Verses:
Dbm        C            G           D           E
What is it now, there's something I see in your face
Dbm         C    G               D            E
Feel like a fox, hounds close at heels at the chase
A                      B
Do I see blood in your eyes, babe?
D                    G
Is it the end of the race?
A      B      Dbm
Ahh... ahh... ahhhh
Am - Am/G - Am/Gb - F
Em - Eb - D
Am - C - D - F
Em - Eb - D - E - A
Ending:
C#m

“MELLOWING GREY”

Verses:
B         F#m      D               A
Mellowing grey, in misty morning's day
   C#m              D               A      G#
My thoughts turn to you, kingfisher blue
C#         G#m      E                B
Loveliness born, in velvet shades of dawn
D#m           E                 B      A#
Joy from your eyes, soft summer skies
Chorus:
A#                             G
All things within the world supreme
     Cm                            F      F#
I compare with the love that is my dream

“NEVER LIKE THIS”

Intro/Bridge:
C  -  D  -  G  -  Em  (x3)
C  -  D  -  A
Verses:
E  -  A7  -  E  -  A7
Chorus:
D   -  G  -  D  -  A

“ME MY FRIEND”

Verses:
Gm                             F            C
Me my friend, I have seen many lands, me my friend
Gm                  Eb
I have been far and wide
       Bb            C
I have sailed many a tide
       Eb            C    D
I have rolled many a ride
Chorus:
      Bb          Eb              Bb          C
But I wish, me my friend, I could sail to the stars
         C            D
Have the gift to transport
         Bb              C
my whole being, my whole thought
     G#                  Gm
To a world of dreams, my friend

“WINTER”

C# - E - B - A
Verses:
C#              E
Winter time, it brings me down
B               A
Ice cold winds, snow on the ground
C#-D-D#       B               F#   D#
Thistle down, send it 'round
F
Slowly upwards, slowly down
C#
Gently moving, never a sound
Bridge:
Bbm                          Bbm-F#-Bbm-F#
Wish that I could hibernate
B               Bbm          Bbm-F-Bbm-F
Go to sleep and never wake
C#
Until the sun comes shining once again
Chorus:
C#     E        B         C#
Winter time, it brings me down

“OLD SONGS, NEW SONGS”

E - D - A

“Hey Mr. Policeman”

Intro:
E------------------------------------
B------------------------------------
G---^16--^16--^16--^16--^16--12^-----
D---------------------------------14-
E------------------------------------
B------------------------------------
G---^16--^16--^16--^16--12-14-12-----
D------------------------------------
Verses:
Em7
Bm  -  A  -  Em7
G  -  A  -  Em7

“SEE THROUGH WINDOWS”

Intro Riff:
E-------------------------------------------------
B-------------------------------------------------
G--------2-2---------0-0--------------------------
D------2-----------2-----------2-3-3-------2------
A--0-1---------0-1---------0-1---------4---4-0-0--
E-------------------------------------------------
Verses:
E---------------------------------
B---------------------------------
G--------2-0----------------------
D------2-----2-1-2---0------------
A--0-1-----------------4-2-0---0--
E----------------------------3----
Chorus:
E-------------------------------------------------
B-------------------------------------------------
G-------------------------------------------------
D------------------2-4-6-4-2----------------------
A--5-3---5-3-----4-------------3-1---3-1----------
E------5-----5---------------------3-----3---1-0--
Bridge Riff:
E---------------------------------------------
B---------------------------------------------
G------1--------------------------------------
D--2-3---3-2-0-2-3-2-2------------------------
A----------------------------4----------------
E------------------------5-6---6-5-3-5-6-5-5--
E---------------------------------------
B---------------------------------------
G---------------------------------------
D------4--------------------------------
A--5-6---6-5-3-5-6-5-5---7--7--7--7--7--
E------------------------9--8--7--6--5--
Guitar Solo:
A

“PEACE OF MIND”

Intro:
Db
B  -  Db
B  -  Db  -  Db
B  -  Db  -  Db  -  Db
Verses:
Db              Db7sus4
Take your time, ease my mind
Gb     B      Db
Wait until my thoughts are blind
Chorus:
Bb                   A                     E             B
There's no stopping, things are throbbing, still I find
Bb                A
Peaceful feeling, cars are speeding
Db
Peace of mind
Instrumental end:
Ebm  -  Gb  -  Ab  -  B  -  Bb  -  Db
Bb  -  Db

“3xTIME”

Intro:
C  -  Gsus4/B  -  Am  -  Asus2
Em/B  -  Em  -  F  -  F/C
Bb  -  Bb/A  -  Bb/G  -  G  -  G  -  G  -  G
G  -  Bb  -  C
Verses:
C     Gsus4/B   Am        C7-C7/G-F
There have been many blue yesterdays
G      Bb C
Passed me by
C   Gsus4/B  Am     C7      C7/G F
And as I sit here,  my time goes fast
     B    Bb/A  Bb/G  F     C
As I re - enact         the past
D   D/A     F        F/C    Bb  Bb/F  Bb     Bb/A
The past is gone but always ver-y     near
G                          Eb     D
Memories good and bad that I know dear
Ending:
Part 1:
G  -  A
A (x12)
D (x4)  -  Dm (x4)  -  F (x4)  -  G (x2)  -  D (x2)  -  A (x4)
Part 2:
F7  -  Eb7 (x3)  -  F7  -  Eb7 (x3)
Bb  -  Bb  -  Ab  -  Ab
C7 (x4)

Leave a Reply

Your email address will not be published.